Slečna Anna je za vodou

Úvodní sólo:
e--------------------------------------
h----------------------8~-10p12p10-8~--

g--9~-7/9/7-6-/9-5-9~------------------
D--------------------------------------
A--------------------------------------
E--------------------------------------

1. Sloka (vybrnkávané akordy):
Slečna EmAnna je za Gvodou sem Asám s hořkou Csvobodou
Emjá fakt nevim, Gco bude Cdál

Dejchám vzduch se zradou Anna to netuší nevnímá
tak tu musim na mostě stát

Ref.:
CPanebože vrať mi Emvílu, Dnebo jenom trochu její Clásky Em
víš, já Gmusim skočit Dmám jí tak Arád

Panebože dej mi sílu, vzpomenu si na obrázky
bylo léto devětadevadesát

Mezihra: Em, C, Em, C, A

2. sloka (stejně jako první):
Slečna Anna je za vodou klesám černou pohodou
vážně nevim co udělám

Kráska se nazabíjí ona se v zrcadlech objímá
tak proč chci na tom hnusnym mostě stát

Né teď se nerozejdem, né jenom pro blbej den
Anna srdce a sabotáž
Né já to neposbírám, né jizvy neotvírám
bez moře neztroskotáš

Ref.:
CPanebože vrať mi Emvílu, Dnebo jenom trochu její Clásky Em
víš, já Gnechci skočit Dmám jí tak Arád

Panebože dej mi sílu, vzpomenu si na obrázky
bylo léto devětadevadesát

(Znova úvodní sólo)

3. sloka:
Slečna Anna je za vodou sem sám s hořkou svobodou
vážně nevim co udělám
Dejchám vzduch se zradou Anna to netuší nevnímá
tak proč tu musim na mostě stát

Ref.: 2x

Panebože vrať mi jí…

Závěrečné sólo:

e-----------------------------------
h-------------------8~-10p12p10-8~--
g---/9/12--9--5--9------------------
D-----------------------------------
A-----------------------------------
E-----------------------------------
Ohodnoťte písničku

Sdílej text a akordy dál.. FacebookTwitterEmail

Comments are closed.